Guitar Tabs, Gear, Galleries, Editorial, Reviews, Forum and more.
Rate content and Earn Redeemable points.
A guitar website designed around you.

Back Up

as performed by 12 Stones

posted by TreyIII

Score Type:

Tablature

Score Part:

Whole Song

Music Style:

Rock

Instrument:

Guitar

Playing Level:

Intermediate

10
Intro:
D|----------------------|
A|----------------------|
F|----------------------|
C|--2----5----0----7----|
G|--2----5----0----7----|
C|--2----5----0----7----|

D|----------------------------------------------------|
A|----------------------------------------------------|
F|----------------------------------------------------|
C|--2-2-22-22-22--5-5-55-55-55--0-0-00-00-00--7-7-77--|
G|--2-2-22-22-22--5-5-55-55-55--0-0-00-00-00--7-7-77--|
C|--2-2-22-22-22--5-5-55-55-55--0-0-00-00-00--7-7-77--|

D|----------------------------------------------------------|
A|----------------------------------------------------------|
F|----------------------------------------------------------|
C|--2222-5555-0000-7-5-7-7-5p0--2222-5555-0000-7-5-7-9-7-5--|
G|--2222-5555-0000-7-5-7-7-5p0--2222-5555-0000-7-5-7-9-7-5--|
C|--2222-5555-0000-7-5-7-7-5p0--2222-5555-0000-7-5-7-9-7-5--|

Verse:
D|--------------------------|
A|--------------------------|
F|--------------------------|
C|--22xx22xxxxx00xx00xxxxx--|
G|--22xx22xxxxx00xx00xxxxx--|
C|--22xx22xxxxx00xx00xxxxx--|x4

D|-------------------------|
A|-------------------------|
F|-------------------------|
C|--22xx22xxxxx00xx000000--|
G|--22xx22xxxxx00xx000000--|
C|--22xx22xxxxx00xx000000--|

Chorus:
D|----------------------------------------------------------|
A|----------------------------------------------------------|
F|----------------------------------------------------------|
C|--2222-5555-0000-7-5-7-7-5p0--2222-5555-0000-7-5-7-9-7-5--|
G|--2222-5555-0000-7-5-7-7-5p0--2222-5555-0000-7-5-7-9-7-5--|
C|--2222-5555-0000-7-5-7-7-5p0--2222-5555-0000-7-5-7-9-7-5--|x2

D|---------------------|
A|---------------------|
F|---------------------|
C|--2xxxx2x2-0xxxx0x0--|
G|--2xxxx2x2-0xxxx0x0--|
C|--2xxxx2x2-0xxxx0x0--|

Verse:
D|--------------------------|
A|--------------------------|
F|--------------------------|
C|--22xx22xxxxx00xx00xxxxx--|
G|--22xx22xxxxx00xx00xxxxx--|
C|--22xx22xxxxx00xx00xxxxx--|x3

D|-------------------------|
A|-------------------------|
F|-------------------------|
C|--22xx22xxxxx00xx000000--|
G|--22xx22xxxxx00xx000000--|
C|--22xx22xxxxx00xx000000--|

Chorus:
D|----------------------------------------------------------|
A|----------------------------------------------------------|
F|----------------------------------------------------------|
C|--2222-5555-0000-7-5-7-7-5p0--2222-5555-0000-7-5-7-9-7-5--|
G|--2222-5555-0000-7-5-7-7-5p0--2222-5555-0000-7-5-7-9-7-5--|
C|--2222-5555-0000-7-5-7-7-5p0--2222-5555-0000-7-5-7-9-7-5--|x2

Bridge:
D|---------------------------------------------------------|
A|---------------------------------------------------------|
F|---------------------------------------------------------|
C|--2---------22--00--22--00--22--xxx00--xxx22--xxx000000--|
G|--2---------22--00--22--00--22--xxx00--xxx22--xxx000000--|
C|--2---------22--00--22--00--22--xxx00--xxx22--xxx000000--|

Solo:
D|--------------------------------------------------------------------|
A|--15h17-15h17-15h17-15-12h15-12--12---------------------------------|
F|-------------------------------14--14-14h16-12--12--------12--12----|
C|----------------------------------------------14--14-12-14--14--14--|
G|--------------------------------------------------------------------|
C|--------------------------------------------------------------------|

D|-------------------------------------------------------------------|
A|-------------------------------------------------------------------|
F|-------------------------------------------------------------------|
C|--12-14-----12--12-14-12--12-------------------------------12--12--|
G|-------12-14--14--------14--14--12-10--12-10----10--12--14---14----|
C|---------------------------------------------14--------------------|

D|-------------------------15b17-15--12h15p12----12--------------|
A|--------------------------------------------15----15h17-15-15--|
F|--14h16-14-12--16-14-12----------------------------------------|
C|-------------14------------------------------------------------|
G|---------------------------------------------------------------|
C|---------------------------------------------------------------|

D|------------------------------------------------------------------|
A|--12h15p12---12-------------------15--15-17-20-17-20-17-20-17-20--|
F|-----------14--14-12--12--12-14h16--16----------------------------|
C|--------------------14--14----------------------------------------|
G|------------------------------------------------------------------|
C|------------------------------------------------------------------|

D|--17b19-17---17b19------------------------------|
A|-----------20--------20-------------------------|
F|-------------------21--21-21p19-----------------|
C|-------------------------------21-19-17-14~~~~--|
G|------------------------------------------------|
C|------------------------------------------------|

Solo fill-in:
D|----------------------------------------------------------|
A|----------------------------------------------------------|
F|----------------------------------------------------------|
C|--2222-5555-0000-7-5-7-7-5p0--2222-5555-0000-7-5-7-9-7-5--|
G|--2222-5555-0000-7-5-7-7-5p0--2222-5555-0000-7-5-7-9-7-5--|
C|--2222-5555-0000-7-5-7-7-5p0--2222-5555-0000-7-5-7-9-7-5--|x2

Chorus/Outro:
D|----------------------------------------------------------|
A|----------------------------------------------------------|
F|----------------------------------------------------------|
C|--2222-5555-0000-7-5-7-7-5p0--2222-5555-0000-7-5-7-9-7-5--|
G|--2222-5555-0000-7-5-7-7-5p0--2222-5555-0000-7-5-7-9-7-5--|
C|--2222-5555-0000-7-5-7-7-5p0--2222-5555-0000-7-5-7-9-7-5--|x3

D|---------------------------------------------------------------|
A|---------------------------------------------------------------|
F|---------------------------------------------------------------|
C|--2222-5555-0000-7-5-7-7-5p0--2222-5555-0000-7-5-7-9-7-5--2----|
G|--2222-5555-0000-7-5-7-7-5p0--2222-5555-0000-7-5-7-9-7-5--2----|
C|--2222-5555-0000-7-5-7-7-5p0--2222-5555-0000-7-5-7-9-7-5--2----|

There are no comments yet.

You must login or register to comment.