Guitar Tabs, Gear, Galleries, Editorial, Reviews, Forum and more.
Rate content and Earn Redeemable points.
A guitar website designed around you.

Broken

as performed by 12 Stones

posted by TreyIII

Score Type:

Tablature

Score Part:

Whole Song

Music Style:

Rock

Instrument:

Guitar

Playing Level:

Intermediate

10
Intro
e |---------------------------------------------------|
B |---------------------------------------------------|
G |--xxx-77-xx-777-55-33-xx-333-5--77-xx-777-101010---|
D |--xxx-77-xx-777-55-33-xx-333-5--77-xx-777—101010---|
A |--xxx-55-xx-555-33-11-xx-111-3--55-xx-555--8-8-8---|
e |---------------------------------------------------|

e |-----------------|
B |-----------------|
G |---33-xx-333-5---|
D |---33-xx-333-5---|
A |---11-xx-111-3---|
e |-----------------|


Chorus
e |--------------------------------------------------------|
B |--------------------------------------------------------|
G |------2-------------------------------------------------|
D |--0-3---3---0h2h3---0h2h3----0h2h3--------0—3--3---(X5)-|
A |---------------------------1--------1h3-----------------|
e |--------------------------------------------------------|
~~Play 5 times and sixth time end before (1h3) then play:

Verse 1
e |--------------------------------------------------------|
B |--------------------------------------------------------|
G |-xxx-77-xx-777-55-33-xx-333-5--77-xx-777-55-33-xx-333-5-|
D |-xxx-77-xx-777-55-33-xx-333-5--77-xx-777-55-33-xx-333-5-|
A |-xxx-55-xx-555-33-11-xx-111-3--55-xx-555-33-11-xx-111-3-|
e |--------------------------------------------------------|

e |-------------------------------------------------|
B |-------------------------------------------------|
G |-77-xx-777-101010-33-xx-333-5--77-xx-777-101010--|
D |-77-xx-777—101010-33-xx-333-5--77-xx-777-101010--|
A |-55-xx-555--8-8-8-11-xx-111-3--55-xx-555--8-8-8--|
e |-------------------------------------------------|

e |-----------------|
B |-----------------|
G |---33-xx-333-5---|
D |---33-xx-333-5---|
A |---11-xx-111-3---|
e |-----------------|

~~Play Chorus 4 times.
~~Play Verse 1, then:

Verse 2
e |-----------------------------------------|
B |-----------------------------------------|
G |---7777/1010--1212---7777/1010--99-------|
D |---7777/1010—-1212---7777/1010--99--(X4)-|
A |---5555/-8-8--1010---5555/-8-8--77-------|
e |-----------------------------------------|

Verse 3
e |--------------------------------------------------------|
B |--------------------------------------------------------|
G |----------------------------------------55-33-22-33-----|
D |--00-33-22-33-55-33-22-00---00-33-22-33------------(X4)-|
A |--------------------------------------------------------|
e |--------------------------------------------------------|
First 2 times palm muted, next 2 aren’t. Last one ends 33b^.

Then play Verse 1, then play first half of verse1 and end on
B |--9--|
G |--9--|
D |--7--|

There are no comments yet.

You must login or register to comment.