How To Disappear Completely

as performed by Radiohead

posted by Satchamo

Score Type:

Tablature

Score Part:

Whole Song

Music Style:

Rock

Instrument:

Guitar

Playing Level:

Advanced

10
  Capo on 2 fret
w/delay, hall

Intro same as verse
Verse (all of the verse are played the same)
1--0-0----0--0----0---0---0--0--0--0-0----0-0-0-0--0-0-0--0-0-0-0--0--|
2--1-1----1--3----3---3---1--1--1--3-3----0-0-0-0--1-1-1--0-0-1-1--0--|
3--0-0----0--0----0---0---0--0--0--0-0----0-0-0-0--0-0-0--0-0-0-0--0--|
4--2-2----2--2----2---2---2--2--2--2-2----2-2-2-2--2-2-2--2-2-2-2--2--|
5--3-3----3--3----3---3---3--3--3--3-3----2-2-2-2--2-2-2--2-2-2-2--2--|
6-----------------------------------------0-0-0-0--0-0-0--0-0-0-0--0--|
  That there,                 that's not me

Chorus
1----------3-3-3-3-3-3-3---3-3--3--3-3--3------------0-0------0-0--0--|
2----------0-0-0-0-1-1-1---0-0--0--1-1--1------------0-0------1-1--0--|
3----------0-0-0-0-0-0-0---0-0--0--0-0--0------------0-0------0-0--0--|
4----------0-0-0-0-0-0-0---0-0--0--0-0--0------------2-2------2-2--2--|
5----------2-2-2-2-x-x-x---2-2--2--x-x--x------------2-2------2-2--2--|
6----------3-3-3-3-3-3-3---3-3--3--3-3--3------------0-0------0-0--0--|
  I'm not here                            This isn't happening

Outro
1----------3-3-3-3-3-3-3---3-3--3--3-3--3------------0-0------0-0--0--|
2----------0-0-0-0-1-1-1---0-0--0--1-1--1------------0-0------1-1--0--|
3----------0-0-0-0-0-0-0---0-0--0--0-0--0------------0-0------0-0--0--|
4----------0-0-0-0-0-0-0---0-0--0--0-0--0------------2-2------2-2--2--|
5----------2-2-2-2-x-x-x---2-2--2--x-x--x------------2-2------2-2--2--|
6----------3-3-3-3-3-3-3---3-3--3--3-3--3------------0-0------0-0--0--|
  Im not heeeeeeeeeeeeeeeeeeeeeeere          Im not heeeeeeeeeere

1------0-0--0-0----0-0--0-0-----------------2-2-3-3--2-2----0------------|
2------0-0--1-1----0-0--1-1-----------------3-3-3-3--3-3----0------------|
3------0-0--0-0----0-0--0-0-----------------2-2-2-2--2-2----0------------|
4------2-2--2-2----2-2--2-2-----------------0-0-0-0--0-0----2------------|
5------2-2--2-2----2-2--2-2-----------------0-0-0-0--0-0----2------------|
6------0-0--0-0----0-0--0-0---------------------------------0------------|
  aaaaaaaaaaaaaahhh aaaaaaaaaaaaahhh    whoaaaaaaaaah           etc

The time where the chords enter, are not very accurate, just for you to have an idea.

Like It!

There are no comments yet.

You must login or register to comment.