Guitar Tabs, Gear, Galleries, Editorial, Reviews, Forum and more.
Rate content and Earn Redeemable points.
A guitar website designed around you.

Photograph

as performed by Nickelback

posted by jimiblue

Score Type:

Chords

Score Part:

Main Riff / Vamp

Music Style:

Rock

Instrument:

Guitar

Playing Level:

Professional

10



Chords

 Dsus2      A#       C#        G#       F#       G#
|-6---|  |--6--|  |--9---|  |--4--|  |--2--|  |--4--|
|-6---|  |--6--|  |--9---|  |--4--|  |--2--|  |--4--|
|-8---|  |--7--|  |--10--|  |--5--|  |--3--|  |--5--|
|-8---|  |--8--|  |--11--|  |--6--|  |--4--|  |--6--|
|-6---|  |--8--|  |--11--|  |--6--|  |--4--|  |--6--|
|-----|  |--6--|  |--9---|  |--4--|  |--2--|  |--4--|

Verse1 (the other verses are with the same chords):

D#sus2
Look at this photograph
A#
Every time I do it makes me laugh
C#
How did our eyes get so red
G#
And what the hell is on Joey's head
D#sus2
This is where I grew up
A#
I think the present owner fixed it up
C#
I never knew we ever went without
G#
The second floor is hard for sneakin' out
D#sus2
This is where I went to school
A#
Most of the time had better things to do
C#
Criminal record says I broke in twice
G#
I must've done it half a dozen times
D#sus2
I wonder if it's too late
A#
Should I go back and try to graduate
C#
Life's better now than it was back then
G#                              F#         G#
If I was them I wouldn't let me in ooooooh oh god I


Chorus:

D#sus2
Every memory of looking out the back door
         A#
I had my photo album spread out on my bedroom floor
     C#
It's hard to say It's time to say it
G#
Goodbye, Goodbye
D#sus2
Every memory of walking out the front door
            A#
I found the photo of the friend That I was looking for
     C#
It's hard to say It's time to say it
G#
Goodbye, Goodbye


Melodic part after first chorus verse:

  A#     F#        C#                 F#
E|--------6-------------------------------------||
B|----8-------8----7--6------7--6-----6---------||
G|-----------------------8--------8-----8--6----||
D|----------------------------------------------||
A|----------------------------------------------||
E|----------------------------------------------||

Bridge:

D#sus2
I miss the town
A#
I miss their faces
F#
You can't erase
G#
You can't replace it
D#sus2
I miss it now
A#
I can't believe it
F#
So hard to stay
G#
Too hard to leave it
D#sus2
If I could relive those days
A#
I know the one thing that would never change


Outro:

D#sus2
Look at this photograph
A#
Every time I do it makes me laugh
C#                         G#
Every time I do it make me

There are no comments yet.

You must login or register to comment.